  0
SECTION
  2
HEADER
  9
$ACADVER
  1
AC1015
  9
$ACADMAINTVER
 70
     6
  9
$DWGCODEPAGE
  3
ANSI_1254
  9
$INSBASE
 10
0.0
 20
0.0
 30
0.0
  9
$EXTMIN
 10
0.0
 20
0.0
 30
0.0
  9
$EXTMAX
 10
279.4
 20
215.9
 30
0.0
  9
$LIMMIN
 10
0.0
 20
0.0
  9
$LIMMAX
 10
279.4
 20
215.9
  9
$ORTHOMODE
 70
     0
  9
$REGENMODE
 70
     1
  9
$FILLMODE
 70
     1
  9
$QTEXTMODE
 70
     0
  9
$MIRRTEXT
 70
     1
  9
$LTSCALE
 40
1.0
  9
$ATTMODE
 70
     1
  9
$TEXTSIZE
 40
3.5
  9
$TRACEWID
 40
1.0
  9
$TEXTSTYLE
  7
Standard
  9
$CLAYER
  8
0
  9
$CELTYPE
  6
ByLayer
  9
$CECOLOR
 62
   256
  9
$CELTSCALE
 40
1.0
  9
$DISPSILH
 70
     0
  9
$DIMSCALE
 40
1.0
  9
$DIMASZ
 40
3.5
  9
$DIMEXO
 40
1.0
  9
$DIMDLI
 40
3.75
  9
$DIMRND
 40
0.0
  9
$DIMDLE
 40
0.0
  9
$DIMEXE
 40
1.0
  9
$DIMTP
 40
0.0
  9
$DIMTM
 40
0.0
  9
$DIMTXT
 40
3.5
  9
$DIMCEN
 40
2.5
  9
$DIMTSZ
 40
0.0
  9
$DIMTOL
 70
     0
  9
$DIMLIM
 70
     0
  9
$DIMTIH
 70
     1
  9
$DIMTOH
 70
     1
  9
$DIMSE1
 70
     0
  9
$DIMSE2
 70
     0
  9
$DIMTAD
 70
     1
  9
$DIMZIN
 70
     0
  9
$DIMBLK
  1

  9
$DIMASO
 70
     1
  9
$DIMSHO
 70
     1
  9
$DIMPOST
  1

  9
$DIMAPOST
  1

  9
$DIMALT
 70
     0
  9
$DIMALTD
 70
     3
  9
$DIMALTF
 40
0.0393700787
  9
$DIMLFAC
 40
1.0
  9
$DIMTOFL
 70
     1
  9
$DIMTVP
 40
0.0
  9
$DIMTIX
 70
     0
  9
$DIMSOXD
 70
     0
  9
$DIMSAH
 70
     0
  9
$DIMBLK1
  1

  9
$DIMBLK2
  1

  9
$DIMSTYLE
  2
ISO-25
  9
$DIMCLRD
 70
     0
  9
$DIMCLRE
 70
     0
  9
$DIMCLRT
 70
     0
  9
$DIMTFAC
 40
1.0
  9
$DIMGAP
 40
1.524
  9
$DIMJUST
 70
     0
  9
$DIMSD1
 70
     0
  9
$DIMSD2
 70
     0
  9
$DIMTOLJ
 70
     0
  9
$DIMTZIN
 70
     0
  9
$DIMALTZ
 70
     0
  9
$DIMALTTZ
 70
     0
  9
$DIMUPT
 70
     0
  9
$DIMDEC
 70
     2
  9
$DIMTDEC
 70
     2
  9
$DIMALTU
 70
     2
  9
$DIMALTTD
 70
     3
  9
$DIMTXSTY
  7
Standard
  9
$DIMAUNIT
 70
     0
  9
$DIMADEC
 70
     2
  9
$DIMALTRND
 40
0.0
  9
$DIMAZIN
 70
     0
  9
$DIMDSEP
 70
    44
  9
$DIMATFIT
 70
     3
  9
$DIMFRAC
 70
     0
  9
$DIMLDRBLK
  1

  9
$DIMLUNIT
 70
     2
  9
$DIMLWD
 70
    -2
  9
$DIMLWE
 70
    -2
  9
$DIMTMOVE
 70
     0
  9
$LUNITS
 70
     2
  9
$LUPREC
 70
     2
  9
$SKETCHINC
 40
1.0
  9
$FILLETRAD
 40
10.0
  9
$AUNITS
 70
     0
  9
$AUPREC
 70
     2
  9
$MENU
  1
.
  9
$ELEVATION
 40
0.0
  9
$PELEVATION
 40
0.0
  9
$THICKNESS
 40
0.0
  9
$LIMCHECK
 70
     0
  9
$CHAMFERA
 40
0.0
  9
$CHAMFERB
 40
0.0
  9
$CHAMFERC
 40
0.0
  9
$CHAMFERD
 40
0.0
  9
$SKPOLY
 70
     0
  9
$TDCREATE
 40
2459935.699853831
  9
$TDUCREATE
 40
2459935.574853831
  9
$TDUPDATE
 40
2459935.699854016
  9
$TDUUPDATE
 40
2459935.574854016
  9
$TDINDWG
 40
0.0000000116
  9
$TDUSRTIMER
 40
0.0000000116
  9
$USRTIMER
 70
     1
  9
$ANGBASE
 50
0.0
  9
$ANGDIR
 70
     0
  9
$PDMODE
 70
     0
  9
$PDSIZE
 40
-1.0
  9
$PLINEWID
 40
0.0
  9
$SPLFRAME
 70
     0
  9
$SPLINETYPE
 70
     6
  9
$SPLINESEGS
 70
     8
  9
$HANDSEED
  5
ED
  9
$SURFTAB1
 70
     6
  9
$SURFTAB2
 70
     6
  9
$SURFTYPE
 70
     6
  9
$SURFU
 70
     6
  9
$SURFV
 70
     6
  9
$UCSBASE
  2

  9
$UCSNAME
  2

  9
$UCSORG
 10
0.0
 20
0.0
 30
0.0
  9
$UCSXDIR
 10
1.0
 20
0.0
 30
0.0
  9
$UCSYDIR
 10
0.0
 20
1.0
 30
0.0
  9
$UCSORTHOREF
  2

  9
$UCSORTHOVIEW
 70
     0
  9
$UCSORGTOP
 10
0.0
 20
0.0
 30
0.0
  9
$UCSORGBOTTOM
 10
0.0
 20
0.0
 30
0.0
  9
$UCSORGLEFT
 10
0.0
 20
0.0
 30
0.0
  9
$UCSORGRIGHT
 10
0.0
 20
0.0
 30
0.0
  9
$UCSORGFRONT
 10
0.0
 20
0.0
 30
0.0
  9
$UCSORGBACK
 10
0.0
 20
0.0
 30
0.0
  9
$PUCSBASE
  2

  9
$PUCSNAME
  2

  9
$PUCSORG
 10
0.0
 20
0.0
 30
0.0
  9
$PUCSXDIR
 10
1.0
 20
0.0
 30
0.0
  9
$PUCSYDIR
 10
0.0
 20
1.0
 30
0.0
  9
$PUCSORTHOREF
  2

  9
$PUCSORTHOVIEW
 70
     0
  9
$PUCSORGTOP
 10
0.0
 20
0.0
 30
0.0
  9
$PUCSORGBOTTOM
 10
0.0
 20
0.0
 30
0.0
  9
$PUCSORGLEFT
 10
0.0
 20
0.0
 30
0.0
  9
$PUCSORGRIGHT
 10
0.0
 20
0.0
 30
0.0
  9
$PUCSORGFRONT
 10
0.0
 20
0.0
 30
0.0
  9
$PUCSORGBACK
 10
0.0
 20
0.0
 30
0.0
  9
$USERI1
 70
     0
  9
$USERI2
 70
     0
  9
$USERI3
 70
     0
  9
$USERI4
 70
     0
  9
$USERI5
 70
     0
  9
$USERR1
 40
0.0
  9
$USERR2
 40
0.0
  9
$USERR3
 40
0.0
  9
$USERR4
 40
0.0
  9
$USERR5
 40
0.0
  9
$WORLDVIEW
 70
     1
  9
$SHADEDGE
 70
     3
  9
$SHADEDIF
 70
    70
  9
$TILEMODE
 70
     1
  9
$MAXACTVP
 70
    64
  9
$PINSBASE
 10
0.0
 20
0.0
 30
0.0
  9
$PLIMCHECK
 70
     0
  9
$PEXTMIN
 10
1.0000000000E+20
 20
1.0000000000E+20
 30
1.0000000000E+20
  9
$PEXTMAX
 10
-1.0000000000E+20
 20
-1.0000000000E+20
 30
-1.0000000000E+20
  9
$PLIMMIN
 10
0.0
 20
0.0
  9
$PLIMMAX
 10
420.0
 20
297.0
  9
$UNITMODE
 70
     0
  9
$VISRETAIN
 70
     1
  9
$PLINEGEN
 70
     0
  9
$PSLTSCALE
 70
     1
  9
$TREEDEPTH
 70
  3020
  9
$CMLSTYLE
  2
Standard
  9
$CMLJUST
 70
     0
  9
$CMLSCALE
 40
20.0
  9
$PROXYGRAPHICS
 70
     1
  9
$MEASUREMENT
 70
     1
  9
$CELWEIGHT
370
    -1
  9
$ENDCAPS
280
     0
  9
$JOINSTYLE
280
     0
  9
$LWDISPLAY
290
     1
  9
$INSUNITS
 70
     4
  9
$HYPERLINKBASE
  1

  9
$STYLESHEET
  1

  9
$XEDIT
290
     1
  9
$CEPSNTYPE
380
     0
  9
$PSTYLEMODE
290
     1
  9
$FINGERPRINTGUID
  2
{7ae021a7-1e76-47f9-9c8a-26dea00cb44e}
  9
$VERSIONGUID
  2
{FAEB1C32-E019-11D5-929B-00C0DF256EC4}
  9
$EXTNAMES
290
     1
  9
$PSVPSCALE
 40
0.0
  9
$OLESTARTUP
290
     0
  0
ENDSEC
  0
SECTION
  2
CLASSES
  0
CLASS
  1
ACDBDICTIONARYWDFLT
  2
AcDbDictionaryWithDefault
  3
ObjectDBX Classes
 90
        0
280
     0
281
     0
  0
CLASS
  1
VISUALSTYLE
  2
AcDbVisualStyle
  3
ObjectDBX Classes
 90
     4095
280
     0
281
     0
  0
CLASS
  1
MATERIAL
  2
AcDbMaterial
  3
ObjectDBX Classes
 90
     1153
280
     0
281
     0
  0
CLASS
  1
SCALE
  2
AcDbScale
  3
ObjectDBX Classes
 90
     1153
280
     0
281
     0
  0
CLASS
  1
TABLESTYLE
  2
AcDbTableStyle
  3
ObjectDBX Classes
 90
     4095
280
     0
281
     0
  0
CLASS
  1
MLEADERSTYLE
  2
AcDbMLeaderStyle
  3
ACDB_MLEADERSTYLE_CLASS
 90
     4095
280
     0
281
     0
  0
CLASS
  1
SUN
  2
AcDbSun
  3
SCENEOE
 90
     1153
280
     0
281
     0
  0
CLASS
  1
ACDBPLACEHOLDER
  2
AcDbPlaceHolder
  3
ObjectDBX Classes
 90
        0
280
     0
281
     0
  0
CLASS
  1
LAYOUT
  2
AcDbLayout
  3
ObjectDBX Classes
 90
        0
280
     0
281
     0
  0
ENDSEC
  0
SECTION
  2
TABLES
  0
TABLE
  2
VPORT
  5
8
330
0
100
AcDbSymbolTable
 70
     1
  0
VPORT
  5
29
330
8
100
AcDbSymbolTableRecord
100
AcDbViewportTableRecord
  2
*Active
 70
     0
 10
0.0
 20
0.0
 11
1.0
 21
1.0
 12
139.7
 22
107.95
 13
0.0
 23
0.0
 14
10.0
 24
10.0
 15
10.0
 25
10.0
 16
0.0
 26
0.0
 36
1.0
 17
0.0
 27
0.0
 37
0.0
 40
215.9
 41
1.2941176471
 42
50.0
 43
0.0
 44
0.0
 50
0.0
 51
0.0
 71
     0
 72
  2000
 73
     1
 74
     3
 75
     0
 76
     0
 77
     0
 78
     0
281
     0
 65
     1
110
0.0
120
0.0
130
0.0
111
1.0
121
0.0
131
0.0
112
0.0
122
1.0
132
0.0
 79
     0
146
0.0
  0
ENDTAB
  0
TABLE
  2
LTYPE
  5
5
330
0
100
AcDbSymbolTable
 70
     6
  0
LTYPE
  5
14
330
5
100
AcDbSymbolTableRecord
100
AcDbLinetypeTableRecord
  2
ByBlock
 70
     0
  3

 72
    65
 73
     0
 40
0.0
  0
LTYPE
  5
15
330
5
100
AcDbSymbolTableRecord
100
AcDbLinetypeTableRecord
  2
ByLayer
 70
     0
  3

 72
    65
 73
     0
 40
0.0
  0
LTYPE
  5
16
330
5
100
AcDbSymbolTableRecord
100
AcDbLinetypeTableRecord
  2
Continuous
 70
     0
  3
Solid line
 72
    65
 73
     0
 40
0.0
  0
LTYPE
  5
6E
330
5
100
AcDbSymbolTableRecord
100
AcDbLinetypeTableRecord
  2
HIDDEN
 70
     0
  3
Hidden __ __ __ __ __ __ __ __ __ __ __ __ __ __
 72
    65
 73
     2
 40
1.905
 49
1.27
 74
     0
 49
-0.635
 74
     0
  0
LTYPE
  5
6F
330
5
100
AcDbSymbolTableRecord
100
AcDbLinetypeTableRecord
  2
PHANTOM
 70
     0
  3
Phantom ______  __  __  ______  __  __  ______
 72
    65
 73
     6
 40
12.7
 49
6.35
 74
     0
 49
-1.27
 74
     0
 49
1.27
 74
     0
 49
-1.27
 74
     0
 49
1.27
 74
     0
 49
-1.27
 74
     0
  0
LTYPE
  5
70
330
5
100
AcDbSymbolTableRecord
100
AcDbLinetypeTableRecord
  2
CENTER
 70
     0
  3
Center ____ _ ____ _ ____ _ ____ _ ____ _ ____
 72
    65
 73
     4
 40
10.16
 49
6.35
 74
     0
 49
-1.27
 74
     0
 49
1.27
 74
     0
 49
-1.27
 74
     0
  0
LTYPE
  5
71
330
5
100
AcDbSymbolTableRecord
100
AcDbLinetypeTableRecord
  2
CENTERX2
 70
     0
  3
Center (2x) ________  __  ________  __  _____
 72
    65
 73
     4
 40
20.32
 49
12.7
 74
     0
 49
-2.54
 74
     0
 49
2.54
 74
     0
 49
-2.54
 74
     0
  0
LTYPE
  5
72
330
5
100
AcDbSymbolTableRecord
100
AcDbLinetypeTableRecord
  2
DOT2
 70
     0
  3
Dot (.5x) ........................................
 72
    65
 73
     2
 40
0.635
 49
0.0
 74
     0
 49
-0.635
 74
     0
  0
ENDTAB
  0
TABLE
  2
LAYER
  5
2
330
0
100
AcDbSymbolTable
 70
    17
  0
LAYER
  5
10
330
2
100
AcDbSymbolTableRecord
100
AcDbLayerTableRecord
  2
0
 70
     0
 62
     7
  6
Continuous
370
    -3
390
F
  0
LAYER
  5
73
330
2
100
AcDbSymbolTableRecord
100
AcDbLayerTableRecord
  2
FORMAT
 70
     0
 62
     7
  6
Continuous
370
    -3
390
F
  0
LAYER
  5
74
330
2
100
AcDbSymbolTableRecord
100
AcDbLayerTableRecord
  2
YARDIMCI_GEOMETRI
 70
     0
 62
    -6
  6
Continuous
290
     0
370
    -3
390
F
  0
LAYER
  5
75
330
2
100
AcDbSymbolTableRecord
100
AcDbLayerTableRecord
  2
SAYFA_CERCEVESI
 70
     0
 62
     7
  6
Continuous
370
    25
390
F
  0
LAYER
  5
76
330
2
100
AcDbSymbolTableRecord
100
AcDbLayerTableRecord
  2
ANTET
 70
     0
 62
     7
  6
Continuous
370
    -3
390
F
  0
LAYER
  5
77
330
2
100
AcDbSymbolTableRecord
100
AcDbLayerTableRecord
  2
OLCU
 70
     0
 62
   150
  6
Continuous
370
    -3
390
F
  0
LAYER
  5
78
330
2
100
AcDbSymbolTableRecord
100
AcDbLayerTableRecord
  2
METIN
 70
     0
 62
    96
  6
Continuous
370
    -3
390
F
  0
LAYER
  5
79
330
2
100
AcDbSymbolTableRecord
100
AcDbLayerTableRecord
  2
BALON
 70
     0
 62
     5
  6
Continuous
370
    -3
390
F
  0
LAYER
  5
7A
330
2
100
AcDbSymbolTableRecord
100
AcDbLayerTableRecord
  2
VURGU
 70
     0
 62
     7
  6
Continuous
370
    -3
390
F
  0
LAYER
  5
7B
330
2
100
AcDbSymbolTableRecord
100
AcDbLayerTableRecord
  2
SILIK
 70
     0
 62
     7
  6
Continuous
370
    -3
390
F
  0
LAYER
  5
7C
330
2
100
AcDbSymbolTableRecord
100
AcDbLayerTableRecord
  2
MODEL
 70
     0
 62
     7
  6
Continuous
370
    -3
390
F
  0
LAYER
  5
7D
330
2
100
AcDbSymbolTableRecord
100
AcDbLayerTableRecord
  2
DETAYLANDıRMA
 70
     0
 62
   190
  6
Continuous
370
    -3
390
F
  0
LAYER
  5
7E
330
2
100
AcDbSymbolTableRecord
100
AcDbLayerTableRecord
  2
TOLERANS
 70
     0
 62
   230
  6
Continuous
370
    -3
390
F
  0
LAYER
  5
7F
330
2
100
AcDbSymbolTableRecord
100
AcDbLayerTableRecord
  2
MERKEZ_CIZGILERI
 70
     0
 62
    30
  6
Continuous
370
    -3
390
F
  0
LAYER
  5
80
330
2
100
AcDbSymbolTableRecord
100
AcDbLayerTableRecord
  2
KESIT-DETAY_CIZGILERI
 70
     0
 62
     7
  6
Continuous
370
    -3
390
F
  0
LAYER
  5
81
330
2
100
AcDbSymbolTableRecord
100
AcDbLayerTableRecord
  2
\U+041E\U+0421\U+0415\U+0412\U+042B\U+0415
 70
     0
 62
     7
  6
Continuous
370
    -3
390
F
  0
LAYER
  5
82
330
2
100
AcDbSymbolTableRecord
100
AcDbLayerTableRecord
  2
\U+0412\U+041E\U+0414\U+042F\U+041D\U+042B\U+0415_\U+0417\U+041D\U+0410\U+041A\U+0418
 70
     0
 62
    11
  6
Continuous
370
    -3
390
F
  0
ENDTAB
  0
TABLE
  2
STYLE
  5
3
330
0
100
AcDbSymbolTable
 70
     1
  0
STYLE
  5
11
330
3
100
AcDbSymbolTableRecord
100
AcDbTextStyleTableRecord
  2
Standard
 70
     0
 40
0.0
 41
1.0
 50
0.0
 71
     0
 42
3.5
  3
txt
  4

  0
ENDTAB
  0
TABLE
  2
VIEW
  5
6
330
0
100
AcDbSymbolTable
 70
     0
  0
ENDTAB
  0
TABLE
  2
UCS
  5
7
330
0
100
AcDbSymbolTable
 70
     0
  0
ENDTAB
  0
TABLE
  2
APPID
  5
9
330
0
100
AcDbSymbolTable
 70
     1
  0
APPID
  5
12
330
9
100
AcDbSymbolTableRecord
100
AcDbRegAppTableRecord
  2
ACAD
 70
     0
  0
ENDTAB
  0
TABLE
  2
DIMSTYLE
  5
A
330
0
100
AcDbSymbolTable
 70
     1
100
AcDbDimStyleTable
  0
DIMSTYLE
105
27
330
A
100
AcDbSymbolTableRecord
100
AcDbDimStyleTableRecord
  2
ISO-25
 70
     0
 41
2.5
 42
0.625
 43
3.75
 44
1.25
 73
     0
 74
     0
 77
     1
 78
     8
140
2.5
141
2.5
143
0.0393700787
147
0.625
171
     3
172
     1
178
     0
271
     2
272
     2
274
     3
278
    44
283
     0
284
     8
340
11
  0
ENDTAB
  0
TABLE
  2
BLOCK_RECORD
  5
1
330
0
100
AcDbSymbolTable
 70
     5
  0
BLOCK_RECORD
  5
1F
330
1
100
AcDbSymbolTableRecord
100
AcDbBlockTableRecord
  2
*Model_Space
340
22
  0
BLOCK_RECORD
  5
1B
330
1
100
AcDbSymbolTableRecord
100
AcDbBlockTableRecord
  2
*Paper_Space
340
1E
  0
BLOCK_RECORD
  5
23
330
1
100
AcDbSymbolTableRecord
100
AcDbBlockTableRecord
  2
*Paper_Space0
340
26
  0
BLOCK_RECORD
  5
97
330
1
100
AcDbSymbolTableRecord
100
AcDbBlockTableRecord
  2
SW_CENTERMARKSYMBOL_0
340
0
102
{BLKREFS
331
A2
102
}
  0
BLOCK_RECORD
  5
AC
330
1
100
AcDbSymbolTableRecord
100
AcDbBlockTableRecord
  2
SW_CENTERMARKSYMBOL_1
340
0
102
{BLKREFS
331
B7
102
}
  0
BLOCK_RECORD
  5
BF
330
1
100
AcDbSymbolTableRecord
100
AcDbBlockTableRecord
  2
SW_CENTERMARKSYMBOL_2
340
0
102
{BLKREFS
331
CA
102
}
  0
BLOCK_RECORD
  5
D2
330
1
100
AcDbSymbolTableRecord
100
AcDbBlockTableRecord
  2
SW_CENTERMARKSYMBOL_3
340
0
102
{BLKREFS
331
DD
102
}
  0
ENDTAB
  0
ENDSEC
  0
SECTION
  2
BLOCKS
  0
BLOCK
  5
20
330
1F
100
AcDbEntity
  8
0
100
AcDbBlockBegin
  2
*Model_Space
 70
     0
 10
0.0
 20
0.0
 30
0.0
  3
*Model_Space
  1

  0
ENDBLK
  5
21
330
1F
100
AcDbEntity
  8
0
100
AcDbBlockEnd
  0
BLOCK
  5
1C
330
1B
100
AcDbEntity
 67
     1
  8
0
100
AcDbBlockBegin
  2
*Paper_Space
 70
     0
 10
0.0
 20
0.0
 30
0.0
  3
*Paper_Space
  1

  0
ENDBLK
  5
1D
330
1B
100
AcDbEntity
 67
     1
  8
0
100
AcDbBlockEnd
  0
BLOCK
  5
24
330
23
100
AcDbEntity
  8
0
100
AcDbBlockBegin
  2
*Paper_Space0
 70
     0
 10
0.0
 20
0.0
 30
0.0
  3
*Paper_Space0
  1

  0
ENDBLK
  5
25
330
23
100
AcDbEntity
  8
0
100
AcDbBlockEnd
  0
BLOCK
  5
98
330
97
100
AcDbEntity
  8
0
100
AcDbBlockBegin
  2
SW_CENTERMARKSYMBOL_0
 70
     0
 10
0.0
 20
0.0
 30
0.0
  3
SW_CENTERMARKSYMBOL_0
  1

  0
LINE
  5
9A
330
97
100
AcDbEntity
  8
FORMAT
 62
     0
100
AcDbLine
 10
0.0
 20
0.0
 30
0.0
 11
0.0
 21
2.5
 31
0.0
  0
LINE
  5
9B
330
97
100
AcDbEntity
  8
FORMAT
 62
     0
100
AcDbLine
 10
0.0
 20
0.0
 30
0.0
 11
-2.5
 21
0.0
 31
0.0
  0
LINE
  5
9C
330
97
100
AcDbEntity
  8
FORMAT
 62
     0
100
AcDbLine
 10
0.0
 20
0.0
 30
0.0
 11
0.0
 21
-2.5
 31
0.0
  0
LINE
  5
9D
330
97
100
AcDbEntity
  8
FORMAT
 62
     0
100
AcDbLine
 10
0.0
 20
0.0
 30
0.0
 11
2.5
 21
0.0
 31
0.0
  0
LINE
  5
9E
330
97
100
AcDbEntity
  8
FORMAT
 62
     0
100
AcDbLine
 10
0.0
 20
5.0
 30
0.0
 11
0.0
 21
72.5
 31
0.0
  0
LINE
  5
9F
330
97
100
AcDbEntity
  8
FORMAT
 62
     0
100
AcDbLine
 10
-5.0
 20
0.0
 30
0.0
 11
-72.5
 21
0.0
 31
0.0
  0
LINE
  5
A0
330
97
100
AcDbEntity
  8
FORMAT
 62
     0
100
AcDbLine
 10
0.0
 20
-5.0
 30
0.0
 11
0.0
 21
-72.5
 31
0.0
  0
LINE
  5
A1
330
97
100
AcDbEntity
  8
FORMAT
 62
     0
100
AcDbLine
 10
5.0
 20
0.0
 30
0.0
 11
72.5
 21
0.0
 31
0.0
  0
ENDBLK
  5
99
330
97
100
AcDbEntity
  8
0
100
AcDbBlockEnd
  0
BLOCK
  5
AD
330
AC
100
AcDbEntity
  8
0
100
AcDbBlockBegin
  2
SW_CENTERMARKSYMBOL_1
 70
     0
 10
0.0
 20
0.0
 30
0.0
  3
SW_CENTERMARKSYMBOL_1
  1

  0
LINE
  5
AF
330
AC
100
AcDbEntity
  8
FORMAT
 62
     0
100
AcDbLine
 10
0.0
 20
0.0
 30
0.0
 11
0.0
 21
2.5
 31
0.0
  0
LINE
  5
B0
330
AC
100
AcDbEntity
  8
FORMAT
 62
     0
100
AcDbLine
 10
0.0
 20
0.0
 30
0.0
 11
-2.5
 21
0.0
 31
0.0
  0
LINE
  5
B1
330
AC
100
AcDbEntity
  8
FORMAT
 62
     0
100
AcDbLine
 10
0.0
 20
0.0
 30
0.0
 11
0.0
 21
-2.5
 31
0.0
  0
LINE
  5
B2
330
AC
100
AcDbEntity
  8
FORMAT
 62
     0
100
AcDbLine
 10
0.0
 20
0.0
 30
0.0
 11
2.5
 21
0.0
 31
0.0
  0
LINE
  5
B3
330
AC
100
AcDbEntity
  8
FORMAT
 62
     0
100
AcDbLine
 10
0.0
 20
5.0
 30
0.0
 11
0.0
 21
72.5
 31
0.0
  0
LINE
  5
B4
330
AC
100
AcDbEntity
  8
FORMAT
 62
     0
100
AcDbLine
 10
-5.0
 20
0.0
 30
0.0
 11
-72.5
 21
0.0
 31
0.0
  0
LINE
  5
B5
330
AC
100
AcDbEntity
  8
FORMAT
 62
     0
100
AcDbLine
 10
0.0
 20
-5.0
 30
0.0
 11
0.0
 21
-72.5
 31
0.0
  0
LINE
  5
B6
330
AC
100
AcDbEntity
  8
FORMAT
 62
     0
100
AcDbLine
 10
5.0
 20
0.0
 30
0.0
 11
72.5
 21
0.0
 31
0.0
  0
ENDBLK
  5
AE
330
AC
100
AcDbEntity
  8
0
100
AcDbBlockEnd
  0
BLOCK
  5
C0
330
BF
100
AcDbEntity
  8
0
100
AcDbBlockBegin
  2
SW_CENTERMARKSYMBOL_2
 70
     0
 10
0.0
 20
0.0
 30
0.0
  3
SW_CENTERMARKSYMBOL_2
  1

  0
LINE
  5
C2
330
BF
100
AcDbEntity
  8
FORMAT
 62
     0
100
AcDbLine
 10
0.0
 20
0.0
 30
0.0
 11
0.0
 21
2.5
 31
0.0
  0
LINE
  5
C3
330
BF
100
AcDbEntity
  8
FORMAT
 62
     0
100
AcDbLine
 10
0.0
 20
0.0
 30
0.0
 11
-2.5
 21
0.0
 31
0.0
  0
LINE
  5
C4
330
BF
100
AcDbEntity
  8
FORMAT
 62
     0
100
AcDbLine
 10
0.0
 20
0.0
 30
0.0
 11
0.0
 21
-2.5
 31
0.0
  0
LINE
  5
C5
330
BF
100
AcDbEntity
  8
FORMAT
 62
     0
100
AcDbLine
 10
0.0
 20
0.0
 30
0.0
 11
2.5
 21
0.0
 31
0.0
  0
LINE
  5
C6
330
BF
100
AcDbEntity
  8
FORMAT
 62
     0
100
AcDbLine
 10
0.0
 20
5.0
 30
0.0
 11
0.0
 21
72.5
 31
0.0
  0
LINE
  5
C7
330
BF
100
AcDbEntity
  8
FORMAT
 62
     0
100
AcDbLine
 10
-5.0
 20
0.0
 30
0.0
 11
-72.5
 21
0.0
 31
0.0
  0
LINE
  5
C8
330
BF
100
AcDbEntity
  8
FORMAT
 62
     0
100
AcDbLine
 10
0.0
 20
-5.0
 30
0.0
 11
0.0
 21
-72.5
 31
0.0
  0
LINE
  5
C9
330
BF
100
AcDbEntity
  8
FORMAT
 62
     0
100
AcDbLine
 10
5.0
 20
0.0
 30
0.0
 11
72.5
 21
0.0
 31
0.0
  0
ENDBLK
  5
C1
330
BF
100
AcDbEntity
  8
0
100
AcDbBlockEnd
  0
BLOCK
  5
D3
330
D2
100
AcDbEntity
  8
0
100
AcDbBlockBegin
  2
SW_CENTERMARKSYMBOL_3
 70
     0
 10
0.0
 20
0.0
 30
0.0
  3
SW_CENTERMARKSYMBOL_3
  1

  0
LINE
  5
D5
330
D2
100
AcDbEntity
  8
FORMAT
 62
     0
100
AcDbLine
 10
0.0
 20
0.0
 30
0.0
 11
0.0
 21
2.5
 31
0.0
  0
LINE
  5
D6
330
D2
100
AcDbEntity
  8
FORMAT
 62
     0
100
AcDbLine
 10
0.0
 20
0.0
 30
0.0
 11
-2.5
 21
0.0
 31
0.0
  0
LINE
  5
D7
330
D2
100
AcDbEntity
  8
FORMAT
 62
     0
100
AcDbLine
 10
0.0
 20
0.0
 30
0.0
 11
0.0
 21
-2.5
 31
0.0
  0
LINE
  5
D8
330
D2
100
AcDbEntity
  8
FORMAT
 62
     0
100
AcDbLine
 10
0.0
 20
0.0
 30
0.0
 11
2.5
 21
0.0
 31
0.0
  0
LINE
  5
D9
330
D2
100
AcDbEntity
  8
FORMAT
 62
     0
100
AcDbLine
 10
0.0
 20
5.0
 30
0.0
 11
0.0
 21
72.5
 31
0.0
  0
LINE
  5
DA
330
D2
100
AcDbEntity
  8
FORMAT
 62
     0
100
AcDbLine
 10
-5.0
 20
0.0
 30
0.0
 11
-72.5
 21
0.0
 31
0.0
  0
LINE
  5
DB
330
D2
100
AcDbEntity
  8
FORMAT
 62
     0
100
AcDbLine
 10
0.0
 20
-5.0
 30
0.0
 11
0.0
 21
-72.9804873752
 31
0.0
  0
LINE
  5
DC
330
D2
100
AcDbEntity
  8
FORMAT
 62
     0
100
AcDbLine
 10
5.0
 20
0.0
 30
0.0
 11
72.5
 21
0.0
 31
0.0
  0
ENDBLK
  5
D4
330
D2
100
AcDbEntity
  8
0
100
AcDbBlockEnd
  0
ENDSEC
  0
SECTION
  2
ENTITIES
  0
LINE
  5
83
330
1F
100
AcDbEntity
  8
0
  6
Continuous
 62
     7
370
    25
100
AcDbLine
 10
10.5883021277
 20
138.0365617021
 30
0.0
 11
10.5883021277
 21
13.0365617021
 31
0.0
  0
LINE
  5
84
330
1F
100
AcDbEntity
  8
0
  6
Continuous
 62
     7
370
    25
100
AcDbLine
 10
150.5883021277
 20
13.0365617021
 30
0.0
 11
150.5883021277
 21
138.0365617021
 31
0.0
  0
ARC
  5
85
330
1F
100
AcDbEntity
  8
0
  6
Continuous
 62
     7
370
    25
100
AcDbCircle
 10
150.5883021277
 20
138.0365617021
 30
0.0
 40
140.0
100
AcDbArc
 50
90.0
 51
180.0
  0
LINE
  5
86
330
1F
100
AcDbEntity
  8
0
  6
Continuous
 62
     7
370
    25
100
AcDbLine
 10
275.5883021277
 20
278.0365617021
 30
0.0
 11
150.5883021277
 21
278.0365617021
 31
0.0
  0
LINE
  5
87
330
1F
100
AcDbEntity
  8
0
  6
Continuous
 62
     7
370
    25
100
AcDbLine
 10
150.5883021277
 20
138.0365617021
 30
0.0
 11
275.5883021277
 21
138.0365617021
 31
0.0
  0
LINE
  5
88
330
1F
100
AcDbEntity
  8
0
  6
Continuous
 62
     7
370
    25
100
AcDbLine
 10
80.5883021277
 20
13.0365617021
 30
0.0
 11
150.5883021277
 21
13.0365617021
 31
0.0
  0
LINE
  5
89
330
1F
100
AcDbEntity
  8
0
  6
Continuous
 62
     7
370
    25
100
AcDbLine
 10
10.5883021277
 20
13.0365617021
 30
0.0
 11
80.5883021277
 21
13.0365617021
 31
0.0
  0
LINE
  5
8A
330
1F
100
AcDbEntity
  8
0
  6
Continuous
 62
     7
370
    25
100
AcDbLine
 10
275.5883021277
 20
208.0365617021
 30
0.0
 11
275.5883021277
 21
138.0365617021
 31
0.0
  0
LINE
  5
8B
330
1F
100
AcDbEntity
  8
0
  6
Continuous
 62
     7
370
    25
100
AcDbLine
 10
275.5883021277
 20
278.0365617021
 30
0.0
 11
275.5883021277
 21
208.0365617021
 31
0.0
  0
LINE
  5
8C
330
1F
100
AcDbEntity
  8
0
  6
Continuous
 62
     1
370
    25
100
AcDbLine
 10
10.5883021277
 20
138.0365617021
 30
0.0
 11
150.5883021277
 21
138.0365617021
 31
0.0
  0
LINE
  5
8D
330
1F
100
AcDbEntity
  8
0
  6
Continuous
 62
     1
370
    25
100
AcDbLine
 10
150.5883021277
 20
278.0365617021
 30
0.0
 11
150.5883021277
 21
138.0365617021
 31
0.0
  0
LINE
  5
8E
330
1F
100
AcDbEntity
  8
0
  6
Continuous
 62
     7
370
    25
100
AcDbLine
 10
-204.6535397527
 20
208.0365617021
 30
0.0
 11
-204.6535397527
 21
138.0365617021
 31
0.0
  0
LINE
  5
8F
330
1F
100
AcDbEntity
  8
0
  6
Continuous
 62
     7
370
    25
100
AcDbLine
 10
-64.6535397527
 20
138.0365617021
 30
0.0
 11
-64.6535397527
 21
208.0365617021
 31
0.0
  0
LINE
  5
90
330
1F
100
AcDbEntity
  8
0
  6
Continuous
 62
     7
370
    25
100
AcDbLine
 10
-204.6535397527
 20
138.0365617021
 30
0.0
 11
-204.6535397527
 21
13.0365617021
 31
0.0
  0
LINE
  5
91
330
1F
100
AcDbEntity
  8
0
  6
Continuous
 62
     7
370
    25
100
AcDbLine
 10
-64.6535397527
 20
13.0365617021
 30
0.0
 11
-64.6535397527
 21
138.0365617021
 31
0.0
  0
CIRCLE
  5
92
330
1F
100
AcDbEntity
  8
0
  6
Continuous
 62
     7
370
    25
100
AcDbCircle
 10
-134.6535397527
 20
208.0365617021
 30
0.0
 40
70.00000000000006
  0
CIRCLE
  5
93
330
1F
100
AcDbEntity
  8
0
  6
Continuous
 62
     7
370
    25
100
AcDbCircle
 10
-134.6535397527
 20
208.0365617021
 30
0.0
 40
61.70000000000002
  0
LINE
  5
94
330
1F
100
AcDbEntity
  8
0
  6
Continuous
 62
     7
370
    25
100
AcDbLine
 10
-204.6535397527
 20
13.0365617021
 30
0.0
 11
-64.6535397527
 21
13.0365617021
 31
0.0
  0
LINE
  5
95
330
1F
100
AcDbEntity
  8
0
  6
Continuous
 62
     1
370
    25
100
AcDbLine
 10
-134.6535397527
 20
138.0365617021
 30
0.0
 11
-64.6535397527
 21
138.0365617021
 31
0.0
  0
LINE
  5
96
330
1F
100
AcDbEntity
  8
0
  6
Continuous
 62
     1
370
    25
100
AcDbLine
 10
-204.6535397527
 20
138.0365617021
 30
0.0
 11
-134.6535397527
 21
138.0365617021
 31
0.0
  0
INSERT
  5
A2
330
1F
100
AcDbEntity
  8
FORMAT
 62
     7
100
AcDbBlockReference
  2
SW_CENTERMARKSYMBOL_0
 10
-134.6535397527
 20
208.0365617021
 30
0.0
  0
LINE
  5
A3
330
1F
100
AcDbEntity
  8
0
  6
Continuous
 62
     7
370
    25
100
AcDbLine
 10
275.5883021277
 20
473.5034238453
 30
0.0
 11
150.5883021277
 21
473.5034238453
 31
0.0
  0
LINE
  5
A4
330
1F
100
AcDbEntity
  8
0
  6
Continuous
 62
     7
370
    25
100
AcDbLine
 10
150.5883021277
 20
333.5034238453
 30
0.0
 11
275.5883021277
 21
333.5034238453
 31
0.0
  0
LINE
  5
A5
330
1F
100
AcDbEntity
  8
0
  6
Continuous
 62
     7
370
    25
100
AcDbLine
 10
150.5883021277
 20
473.5034238453
 30
0.0
 11
80.5883021277
 21
473.5034238453
 31
0.0
  0
LINE
  5
A6
330
1F
100
AcDbEntity
  8
0
  6
Continuous
 62
     7
370
    25
100
AcDbLine
 10
80.5883021277
 20
333.5034238453
 30
0.0
 11
150.5883021277
 21
333.5034238453
 31
0.0
  0
CIRCLE
  5
A7
330
1F
100
AcDbEntity
  8
0
  6
Continuous
 62
     7
370
    25
100
AcDbCircle
 10
80.5883021277
 20
403.5034238453
 30
0.0
 40
61.70000000000005
  0
CIRCLE
  5
A8
330
1F
100
AcDbEntity
  8
0
  6
Continuous
 62
     7
370
    25
100
AcDbCircle
 10
80.5883021277
 20
403.5034238453
 30
0.0
 40
70.00000000000006
  0
LINE
  5
A9
330
1F
100
AcDbEntity
  8
0
  6
Continuous
 62
     7
370
    25
100
AcDbLine
 10
275.5883021277
 20
473.5034238453
 30
0.0
 11
275.5883021277
 21
333.5034238453
 31
0.0
  0
LINE
  5
AA
330
1F
100
AcDbEntity
  8
0
  6
Continuous
 62
     1
370
    25
100
AcDbLine
 10
150.5883021277
 20
403.5034238453
 30
0.0
 11
150.5883021277
 21
333.5034238453
 31
0.0
  0
LINE
  5
AB
330
1F
100
AcDbEntity
  8
0
  6
Continuous
 62
     1
370
    25
100
AcDbLine
 10
150.5883021277
 20
473.5034238453
 30
0.0
 11
150.5883021277
 21
403.5034238453
 31
0.0
  0
INSERT
  5
B7
330
1F
100
AcDbEntity
  8
FORMAT
 62
     7
100
AcDbBlockReference
  2
SW_CENTERMARKSYMBOL_1
 10
80.5883021277
 20
403.5034238453
 30
0.0
  0
LINE
  5
B8
330
1F
100
AcDbEntity
  8
0
  6
Continuous
 62
     7
370
    25
100
AcDbLine
 10
344.9858365349
 20
138.0365617021
 30
0.0
 11
344.9858365349
 21
13.0365617021
 31
0.0
  0
LINE
  5
B9
330
1F
100
AcDbEntity
  8
0
  6
Continuous
 62
     7
370
    25
100
AcDbLine
 10
484.9858365349
 20
13.0365617021
 30
0.0
 11
484.9858365349
 21
138.0365617021
 31
0.0
  0
LINE
  5
BA
330
1F
100
AcDbEntity
  8
0
  6
Continuous
 62
     7
370
    25
100
AcDbLine
 10
484.9858365349
 20
138.0365617021
 30
0.0
 11
484.9858365349
 21
208.0365617021
 31
0.0
  0
LINE
  5
BB
330
1F
100
AcDbEntity
  8
0
  6
Continuous
 62
     7
370
    25
100
AcDbLine
 10
344.9858365349
 20
208.0365617021
 30
0.0
 11
344.9858365349
 21
138.0365617021
 31
0.0
  0
LINE
  5
BC
330
1F
100
AcDbEntity
  8
0
  6
Continuous
 62
     7
370
    25
100
AcDbLine
 10
344.9858365349
 20
13.0365617021
 30
0.0
 11
484.9858365349
 21
13.0365617021
 31
0.0
  0
ARC
  5
BD
330
1F
100
AcDbEntity
  8
0
  6
Continuous
 62
     7
370
    25
100
AcDbCircle
 10
414.9858365349
 20
208.0365617021
 30
0.0
 40
70.00000000000006
100
AcDbArc
 50
0.0
 51
180.0
  0
LINE
  5
BE
330
1F
100
AcDbEntity
  8
0
  6
Continuous
 62
     1
370
    25
100
AcDbLine
 10
344.9858365349
 20
138.0365617021
 30
0.0
 11
484.9858365349
 21
138.0365617021
 31
0.0
  0
INSERT
  5
CA
330
1F
100
AcDbEntity
  8
FORMAT
 62
     7
100
AcDbBlockReference
  2
SW_CENTERMARKSYMBOL_2
 10
414.9858365349
 20
208.0365617021
 30
0.0
  0
LINE
  5
CB
330
1F
100
AcDbEntity
  8
0
  6
Continuous
 62
     7
370
    25
100
AcDbLine
 10
80.5883021277
 20
-272.6321926941
 30
0.0
 11
150.5883021277
 21
-272.6321926941
 31
0.0
  0
LINE
  5
CC
330
1F
100
AcDbEntity
  8
0
  6
Continuous
 62
     7
370
    25
100
AcDbLine
 10
150.5883021277
 20
-132.6321926941
 30
0.0
 11
80.5883021277
 21
-132.6321926941
 31
0.0
  0
LINE
  5
CD
330
1F
100
AcDbEntity
  8
0
  6
Continuous
 62
     7
370
    25
100
AcDbLine
 10
275.5883021277
 20
-132.6321926941
 30
0.0
 11
150.5883021277
 21
-132.6321926941
 31
0.0
  0
LINE
  5
CE
330
1F
100
AcDbEntity
  8
0
  6
Continuous
 62
     7
370
    25
100
AcDbLine
 10
150.5883021277
 20
-272.6321926941
 30
0.0
 11
275.5883021277
 21
-272.6321926941
 31
0.0
  0
ARC
  5
CF
330
1F
100
AcDbEntity
  8
0
  6
Continuous
 62
     7
370
    25
100
AcDbCircle
 10
80.5883021277
 20
-202.6321926941
 30
0.0
 40
70.00000000000006
100
AcDbArc
 50
90.0
 51
270.0
  0
LINE
  5
D0
330
1F
100
AcDbEntity
  8
0
  6
Continuous
 62
     7
370
    25
100
AcDbLine
 10
275.5883021277
 20
-132.6321926941
 30
0.0
 11
275.5883021277
 21
-272.6321926941
 31
0.0
  0
LINE
  5
D1
330
1F
100
AcDbEntity
  8
0
  6
Continuous
 62
     1
370
    25
100
AcDbLine
 10
150.5883021277
 20
-132.6321926941
 30
0.0
 11
150.5883021277
 21
-272.6321926941
 31
0.0
  0
INSERT
  5
DD
330
1F
100
AcDbEntity
  8
FORMAT
 62
     7
100
AcDbBlockReference
  2
SW_CENTERMARKSYMBOL_3
 10
80.5883021277
 20
-202.6321926941
 30
0.0
  0
LINE
  5
DE
330
1F
100
AcDbEntity
  8
0
  6
Continuous
 62
     7
370
    25
100
AcDbLine
 10
505.8654347525
 20
-7.5322789887
 30
0.0
 11
417.4770871042
 21
-58.5577859776
 31
0.0
  0
LINE
  5
DF
330
1F
100
AcDbEntity
  8
0
  6
Continuous
 62
     7
370
    25
100
AcDbLine
 10
487.4713983887
 20
-179.8046267109
 30
0.0
 11
575.859746037
 21
-128.779119722
 31
0.0
  0
LINE
  5
E0
330
1F
100
AcDbEntity
  8
0
  6
Continuous
 62
     7
370
    25
100
AcDbLine
 10
332.9767680634
 20
-204.9133470901
 30
0.0
 11
332.9767680634
 21
-306.9809485758
 31
0.0
  0
LINE
  5
E1
330
1F
100
AcDbEntity
  8
0
  6
Continuous
 62
     7
370
    25
100
AcDbLine
 10
472.9767680634
 20
-306.9809485758
 30
0.0
 11
472.9767680634
 21
-204.9133470901
 31
0.0
  0
SPLINE
  5
E2
330
1F
100
AcDbEntity
  8
0
  6
Continuous
 62
     7
370
    25
100
AcDbSpline
210
0.0
220
0.0
230
1.0
 70
     8
 71
     3
 72
    38
 73
    34
 74
     0
 42
0.00000001
 43
0.00000001
 40
0.0
 40
0.0
 40
0.0
 40
0.0
 40
0.0214512429670159
 40
0.0544218493396068
 40
0.0874761305504106
 40
0.1206922709234009
 40
0.1540077657514456
 40
0.1873571012341973
 40
0.2206900314333292
 40
0.253974675818924
 40
0.2871906448416247
 40
0.3203281775219144
 40
0.3533866658938668
 40
0.3863729822229303
 40
0.4192998588677734
 40
0.4521844504175568
 40
0.4850471179419771
 40
0.5179104180581836
 40
0.5507978964738001
 40
0.5837262937159916
 40
0.6167201174256064
 40
0.649803155362259
 40
0.6829975803353331
 40
0.7163228669771243
 40
0.7497944495423619
 40
0.7834220750573841
 40
0.8172078566903989
 40
0.8511441229428712
 40
0.8852112971982391
 40
0.9193762178491606
 40
0.9535801663658978
 40
0.9877512011157034
 40
1.0
 40
1.0
 40
1.0
 40
1.0
 10
417.4770871041625
 20
-58.55778597762526
 30
0.0
 10
416.4256098435976
 20
-59.17605230174153
 30
0.0
 10
413.7580097820775
 20
-60.74459528988208
 30
0.0
 10
409.558470920125
 20
-63.44962418643288
 30
0.0
 10
404.8920231495618
 20
-66.70568787882691
 30
0.0
 10
400.3178418812731
 20
-70.16978045894449
 30
0.0
 10
395.8403681828104
 20
-73.83059626846932
 30
0.0
 10
391.471975533706
 20
-77.6765136660951
 30
0.0
 10
387.2226058527054
 20
-81.6943750851905
 30
0.0
 10
383.1001770521839
 20
-85.87223119167301
 30
0.0
 10
379.1107815485598
 20
-90.1990406120432
 30
0.0
 10
375.2592944698276
 20
-94.66470155568571
 30
0.0
 10
371.5496496113155
 20
-99.26006681966673
 30
0.0
 10
367.9851364229293
 20
-103.9769176625271
 30
0.0
 10
364.5686616087182
 20
-108.8078772678165
 30
0.0
 10
361.3029699229269
 20
-113.7463054590933
 30
0.0
 10
358.1908218584791
 20
-118.7861873584944
 30
0.0
 10
355.2351452073174
 20
-123.922006563862
 30
0.0
 10
352.4393535673609
 20
-129.1482477707193
 30
0.0
 10
349.8071553710899
 20
-134.4596847233191
 30
0.0
 10
347.3426146873608
 20
-139.851312301858
 30
0.0
 10
345.0500676162652
 20
-145.3186558378692
 30
0.0
 10
342.9344071282301
 20
-150.8572133707414
 30
0.0
 10
341.0011386515918
 20
-156.4622680709763
 30
0.0
 10
339.2564208656553
 20
-162.1286512762465
 30
0.0
 10
337.7070678191523
 20
-167.8504498681359
 30
0.0
 10
336.3605370561559
 20
-173.6206546542251
 30
0.0
 10
335.2247179471577
 20
-179.4307857886982
 30
0.0
 10
334.3081053992651
 20
-185.2704671080591
 30
0.0
 10
333.6181292545625
 20
-191.1266328771324
 30
0.0
 10
333.1659192548265
 20
-196.9827841896667
 30
0.0
 10
332.9925780929192
 20
-201.578376538571
 30
0.0
 10
332.980068871039
 20
-204.217074110509
 30
0.0
 10
332.9767680633666
 20
-204.9133470900703
 30
0.0
  0
SPLINE
  5
E3
330
1F
100
AcDbEntity
  8
0
  6
Continuous
 62
     7
370
    25
100
AcDbSpline
210
0.0
220
0.0
230
1.0
 70
     8
 71
     3
 72
    33
 73
    29
 74
     0
 42
0.00000001
 43
0.00000001
 40
0.0
 40
0.0
 40
0.0
 40
0.0
 40
0.0112876299630927
 40
0.0534302604062196
 40
0.0941717883776374
 40
0.1338985098396182
 40
0.1729575337167899
 40
0.2116493743627438
 40
0.2502220706704968
 40
0.2888671714105333
 40
0.3276934457611878
 40
0.3667724485113078
 40
0.4061460348449127
 40
0.445809575936632
 40
0.485721463716365
 40
0.5258144666042991
 40
0.5660043369916832
 40
0.6061879357081833
 40
0.6463059728202427
 40
0.6863326991304264
 40
0.7262882916630449
 40
0.7662491598930924
 40
0.806355260132986
 40
0.8467566179290543
 40
0.887693091667409
 40
0.9294736432781999
 40
0.9724615587423138
 40
1.0
 40
1.0
 40
1.0
 40
1.0
 10
472.9764254345565
 20
-204.9591458480602
 30
0.0
 10
472.9763148325977
 20
-204.9660636655511
 30
0.0
 10
472.9757912956389
 20
-204.9988093164261
 30
0.0
 10
472.983306327147
 20
-204.830692501749
 30
0.0
 10
473.0240581376763
 20
-204.447449949177
 30
0.0
 10
473.1139260699992
 20
-203.8357401126209
 30
0.0
 10
473.2671532544364
 20
-203.0303315127904
 30
0.0
 10
473.4965518666547
 20
-202.0402882778004
 30
0.0
 10
473.8126386022
 20
-200.8836161140215
 30
0.0
 10
474.223422722268
 20
-199.5792134107123
 30
0.0
 10
474.7339048169862
 20
-198.1494952386675
 30
0.0
 10
475.345727433032
 20
-196.6195409990266
 30
0.0
 10
476.0570283284697
 20
-195.0166001657944
 30
0.0
 10
476.8621660865631
 20
-193.3697872716376
 30
0.0
 10
477.7514547976515
 20
-191.7097290605779
 30
0.0
 10
478.7111644867591
 20
-190.0677222693713
 30
0.0
 10
479.7235944488925
 20
-188.4749297483935
 30
0.0
 10
480.7677584956664
 20
-186.960794715343
 30
0.0
 10
481.8201951462872
 20
-185.5517797007068
 30
0.0
 10
482.85601152723
 20
-184.2702042995396
 30
0.0
 10
483.8495274408071
 20
-183.1338938749073
 30
0.0
 10
484.7749496530148
 20
-182.1558663065316
 30
0.0
 10
485.6068742378544
 20
-181.3444679338693
 30
0.0
 10
486.3199611063495
 20
-180.7037332012009
 30
0.0
 10
486.8937287638427
 20
-180.2308080506778
 30
0.0
 10
487.2963510365773
 20
-179.9266977979729
 30
0.0
 10
487.5144105584361
 20
-179.7795077952967
 30
0.0
 10
487.508240479957
 20
-179.7836252957291
 30
0.0
 10
487.5058312481228
 20
-179.785233056984
 30
0.0
  0
LWPOLYLINE
  5
E4
330
1F
100
AcDbEntity
  8
0
  6
Continuous
 62
     7
370
    25
100
AcDbPolyline
 90
      101
 70
   128
 43
0.0
 10
491.3651157117
 20
-39.5814154416
 10
491.4627876713
 20
-43.2267717894
 10
491.7554180837
 20
-46.9705112253
 10
492.2418520703
 20
-50.7978589202
 10
492.9201698983
 20
-54.6937100813
 10
493.7876945573
 20
-58.6426895638
 10
494.8410023236
 20
-62.6292125499
 10
496.0759362728
 20
-66.6375460546
 10
497.4876226847
 20
-70.6518710168
 10
499.070490278
 20
-74.6563447299
 10
500.8182921975
 20
-78.6351633655
 10
502.7241306675
 20
-82.5726243443
 10
504.7804842142
 20
-86.4531883066
 10
506.9792373497
 20
-90.2615404394
 10
509.3117125998
 20
-93.9826509166
 10
511.7687047503
 20
-97.6018342151
 10
514.3405171758
 20
-101.1048070721
 10
517.0170001074
 20
-104.4777448539
 10
519.7875906899
 20
-107.7073361161
 10
522.641354668
 20
-110.7808351375
 10
525.567029539
 20
-113.6861122214
 10
528.5530690009
 20
-116.4117015667
 10
531.58768852
 20
-118.9468465173
 10
534.6589118394
 20
-121.2815420143
 10
537.754618244
 20
-123.4065740812
 10
540.8625903947
 20
-125.3135561874
 10
543.9705625455
 20
-126.9949623455
 10
547.06626895
 20
-128.4441568137
 10
550.1374922695
 20
-129.6554202835
 10
553.1721117886
 20
-130.6239724514
 10
556.1581512505
 20
-131.3459908844
 10
559.0838261215
 20
-131.8186261056
 10
561.9375900996
 20
-132.0400128397
 10
564.7081806821
 20
-132.0092773745
 10
567.3846636137
 20
-131.7265410088
 10
569.9564760392
 20
-131.1929195738
 10
572.4134681897
 20
-130.4105190296
 10
574.7459434398
 20
-129.3824271537
 10
576.9446965753
 20
-128.112701355
 10
579.001050122
 20
-126.6063526611
 10
580.906888592
 20
-124.8693259422
 10
582.6546905115
 20
-122.9084764492
 10
584.2375581048
 20
-120.7315427591
 10
585.6492445167
 20
-118.3471162347
 10
586.8841784659
 20
-115.7646071182
 10
587.9374862322
 20
-112.9942073932
 10
588.8050108911
 20
-110.0468505617
 10
589.4833287192
 20
-106.9341684947
 10
589.9697627057
 20
-103.6684455261
 10
590.2623931181
 20
-100.2625699727
 10
590.3600650778
 20
-96.7299832691
 10
590.2623931181
 20
-93.0846269214
 10
589.9697627057
 20
-89.3408874854
 10
589.4833287192
 20
-85.5135397905
 10
588.8050108911
 20
-81.6176886294
 10
587.9374862322
 20
-77.6687091469
 10
586.8841784659
 20
-73.6821861608
 10
585.6492445167
 20
-69.6738526561
 10
584.2375581048
 20
-65.6595276939
 10
582.6546905115
 20
-61.6550539808
 10
580.906888592
 20
-57.6762353452
 10
579.001050122
 20
-53.7387743664
 10
576.9446965753
 20
-49.8582104041
 10
574.7459434398
 20
-46.0498582714
 10
572.4134681897
 20
-42.3287477942
 10
569.9564760392
 20
-38.7095644956
 10
567.3846636137
 20
-35.2065916386
 10
564.7081806821
 20
-31.8336538568
 10
561.9375900996
 20
-28.6040625946
 10
559.0838261215
 20
-25.5305635732
 10
556.1581512505
 20
-22.6252864893
 10
553.1721117886
 20
-19.899697144
 10
550.1374922695
 20
-17.3645521934
 10
547.06626895
 20
-15.0298566964
 10
543.9705625455
 20
-12.9048246295
 10
540.8625903947
 20
-10.9978425234
 10
537.754618244
 20
-9.3164363652
 10
534.6589118394
 20
-7.867241897
 10
531.58768852
 20
-6.6559784272
 10
528.5530690009
 20
-5.6874262593
 10
525.567029539
 20
-4.9654078264
 10
522.641354668
 20
-4.4927726051
 10
519.7875906899
 20
-4.271385871
 10
517.0170001074
 20
-4.3021213362
 10
514.3405171758
 20
-4.5848577019
 10
511.7687047503
 20
-5.1184791369
 10
509.3117125998
 20
-5.9008796811
 10
506.9792373497
 20
-6.928971557
 10
504.7804842142
 20
-8.1986973557
 10
502.7241306675
 20
-9.7050460496
 10
500.8182921975
 20
-11.4420727685
 10
499.070490278
 20
-13.4029222616
 10
497.4876226847
 20
-15.5798559516
 10
496.0759362728
 20
-17.964282476
 10
494.8410023236
 20
-20.5467915925
 10
493.7876945573
 20
-23.3171913175
 10
492.9201698983
 20
-26.264548149
 10
492.2418520703
 20
-29.377230216
 10
491.7554180837
 20
-32.6429531846
 10
491.4627876713
 20
-36.048828738
 10
491.3651157117
 20
-39.5814154416
  0
LWPOLYLINE
  5
E5
330
1F
100
AcDbEntity
  8
0
  6
Continuous
 62
     7
370
    25
100
AcDbPolyline
 90
       95
 70
   128
 43
0.0
 10
497.2341019955
 20
-42.9695091056
 10
497.3315297056
 20
-39.6607020929
 10
497.6233777001
 20
-36.4791606553
 10
498.1083425149
 20
-33.4390943291
 10
498.7842581795
 20
-30.5540807885
 10
499.6481058904
 20
-27.8370052044
 10
500.6960274941
 20
-25.3000026958
 10
501.9233427184
 20
-22.954404132
 10
503.3245700753
 20
-20.8106855253
 10
504.8934513435
 20
-18.8784212436
 10
506.6229795184
 20
-17.1662412482
 10
508.5054301072
 20
-15.6817925506
 10
510.5323956287
 20
-14.431705059
 10
512.6948231628
 20
-13.4215619677
 10
514.9830547832
 20
-12.6558748208
 10
517.3868706919
 20
-12.1380633631
 10
519.8955348637
 20
-11.8704402662
 10
522.4978429953
 20
-11.8542007999
 10
525.1821725469
 20
-12.0894174935
 10
527.9365346511
 20
-12.5750398122
 10
530.7486276581
 20
-13.3088988488
 10
533.6058920779
 20
-14.2877170107
 10
536.4955666739
 20
-15.5071226585
 10
539.404745458
 20
-16.9616696304
 10
542.3204353315
 20
-18.6448615666
 10
545.2296141156
 20
-20.5491809233
 10
548.1192887116
 20
-22.666122548
 10
550.9765531314
 20
-24.9862316655
 10
553.7886461384
 20
-27.4991461052
 10
556.5430082426
 20
-30.1936425813
 10
559.2273377942
 20
-33.0576868183
 10
561.8296459258
 20
-36.0784872996
 10
564.3383100976
 20
-39.2425523967
 10
566.7421260063
 20
-42.5357506269
 10
569.0303576267
 20
-45.9433737674
 10
571.1927851608
 20
-49.4502025462
 10
573.2197506823
 20
-53.0405746146
 10
575.1022012711
 20
-56.6984544992
 10
576.8317294459
 20
-60.4075052207
 10
578.4006107142
 20
-64.1511612582
 10
579.8018380711
 20
-67.9127025348
 10
581.0291532953
 20
-71.6753290943
 10
582.0770748991
 20
-75.4222361329
 10
582.94092261
 20
-79.1366890543
 10
583.6168382746
 20
-82.8020982101
 10
584.1018030894
 20
-86.4020929931
 10
584.3936510839
 20
-89.9205949527
 10
584.491078794
 20
-93.3418896051
 10
584.3936510839
 20
-96.6506966178
 10
584.1018030894
 20
-99.8322380554
 10
583.6168382746
 20
-102.8723043816
 10
582.94092261
 20
-105.7573179222
 10
582.0770748991
 20
-108.4743935063
 10
581.0291532953
 20
-111.0113960149
 10
579.8018380711
 20
-113.3569945787
 10
578.4006107142
 20
-115.5007131854
 10
576.8317294459
 20
-117.4329774671
 10
575.1022012711
 20
-119.1451574625
 10
573.2197506823
 20
-120.6296061601
 10
571.1927851608
 20
-121.8796936517
 10
569.0303576267
 20
-122.889836743
 10
566.7421260063
 20
-123.6555238899
 10
564.3383100976
 20
-124.1733353476
 10
561.8296459258
 20
-124.4409584445
 10
559.2273377942
 20
-124.4571979109
 10
556.5430082426
 20
-124.2219812172
 10
553.7886461384
 20
-123.7363588986
 10
550.9765531314
 20
-123.0024998619
 10
548.1192887116
 20
-122.0236817
 10
545.2296141156
 20
-120.8042760522
 10
542.3204353315
 20
-119.3497290803
 10
539.404745458
 20
-117.6665371441
 10
536.4955666739
 20
-115.7622177874
 10
533.6058920779
 20
-113.6452761627
 10
530.7486276581
 20
-111.3251670452
 10
527.9365346511
 20
-108.8122526055
 10
525.1821725469
 20
-106.1177561294
 10
522.4978429953
 20
-103.2537118924
 10
519.8955348637
 20
-100.2329114111
 10
517.3868706919
 20
-97.068846314
 10
514.9830547832
 20
-93.7756480838
 10
512.6948231628
 20
-90.3680249433
 10
510.5323956287
 20
-86.8611961645
 10
508.5054301072
 20
-83.2708240961
 10
506.6229795184
 20
-79.6129442115
 10
504.8934513435
 20
-75.90389349
 10
503.3245700753
 20
-72.1602374525
 10
501.9233427184
 20
-68.3986961759
 10
500.6960274941
 20
-64.6360696164
 10
499.6481058904
 20
-60.8891625778
 10
498.7842581795
 20
-57.1747096564
 10
498.1083425149
 20
-53.5093005006
 10
497.6233777001
 20
-49.9093057176
 10
497.3315297056
 20
-46.390803758
 10
497.2341019955
 20
-42.9695091056
  0
LWPOLYLINE
  5
E6
330
1F
100
AcDbEntity
  8
0
  6
Continuous
 62
     7
370
    25
100
AcDbPolyline
 90
      101
 70
   128
 43
0.0
 10
353.4792933803
 20
-278.406664662
 10
356.6849374907
 20
-276.668855352
 10
360.0732743077
 20
-275.0506740257
 10
363.6309316137
 20
-273.5585069055
 10
367.3438689608
 20
-272.1982428932
 10
371.1974330816
 20
-270.9752503296
 10
375.1764157189
 20
-269.8943558076
 10
379.2651136462
 20
-268.9598251239
 10
383.4473906406
 20
-268.1753464444
 10
387.7067411656
 20
-267.5440157478
 10
392.0263555106
 20
-267.0683246081
 10
396.3891861311
 20
-266.7501503608
 10
400.7780149279
 20
-266.5907486944
 10
405.1755211988
 20
-266.5907486944
 10
409.5643499957
 20
-266.7501503608
 10
413.9271806162
 20
-267.0683246081
 10
418.2467949611
 20
-267.5440157478
 10
422.5061454861
 20
-268.1753464444
 10
426.6884224805
 20
-268.9598251239
 10
430.7771204078
 20
-269.8943558076
 10
434.7561030451
 20
-270.9752503296
 10
438.6096671659
 20
-272.1982428932
 10
442.322604513
 20
-273.5585069055
 10
445.8802618191
 20
-275.0506740257
 10
449.268598636
 20
-276.668855352
 10
452.4742427464
 20
-278.406664662
 10
455.4845429375
 20
-280.2572436162
 10
458.2876189297
 20
-282.2132888251
 10
460.8724082626
 20
-284.2670806717
 10
463.2287099536
 20
-286.4105137779
 10
465.3472247566
 20
-288.6351289926
 10
467.2195918612
 20
-290.9321467757
 10
468.8384218902
 20
-293.2925018475
 10
470.1973260608
 20
-295.706878965
 10
471.2909413991
 20
-298.1657496845
 10
472.114951905
 20
-300.6594099668
 10
472.6661055856
 20
-303.1780184739
 10
472.942227289
 20
-305.7116354088
 10
472.942227289
 20
-308.2502617428
 10
472.6661055856
 20
-310.7838786777
 10
472.114951905
 20
-313.3024871848
 10
471.2909413991
 20
-315.7961474671
 10
470.1973260608
 20
-318.2550181866
 10
468.8384218902
 20
-320.669395304
 10
467.2195918612
 20
-323.0297503759
 10
465.3472247566
 20
-325.326768159
 10
463.2287099536
 20
-327.5513833737
 10
460.8724082626
 20
-329.6948164799
 10
458.2876189297
 20
-331.7486083265
 10
455.4845429375
 20
-333.7046535353
 10
452.4742427464
 20
-335.5552324896
 10
449.268598636
 20
-337.2930417996
 10
445.8802618191
 20
-338.9112231259
 10
442.322604513
 20
-340.4033902461
 10
438.6096671659
 20
-341.7636542583
 10
434.7561030451
 20
-342.9866468219
 10
430.7771204078
 20
-344.067541344
 10
426.6884224805
 20
-345.0020720276
 10
422.5061454861
 20
-345.7865507072
 10
418.2467949611
 20
-346.4178814038
 10
413.9271806162
 20
-346.8935725435
 10
409.5643499957
 20
-347.2117467907
 10
405.1755211988
 20
-347.3711484572
 10
400.7780149279
 20
-347.3711484572
 10
396.3891861311
 20
-347.2117467907
 10
392.0263555105
 20
-346.8935725435
 10
387.7067411656
 20
-346.4178814038
 10
383.4473906406
 20
-345.7865507072
 10
379.2651136462
 20
-345.0020720276
 10
375.1764157189
 20
-344.067541344
 10
371.1974330816
 20
-342.9866468219
 10
367.3438689608
 20
-341.7636542583
 10
363.6309316137
 20
-340.4033902461
 10
360.0732743077
 20
-338.9112231259
 10
356.6849374907
 20
-337.2930417996
 10
353.4792933803
 20
-335.5552324896
 10
350.4689931892
 20
-333.7046535353
 10
347.6659171971
 20
-331.7486083265
 10
345.0811278641
 20
-329.6948164799
 10
342.7248261731
 20
-327.5513833737
 10
340.6063113702
 20
-325.326768159
 10
338.7339442655
 20
-323.0297503759
 10
337.1151142366
 20
-320.669395304
 10
335.756210066
 20
-318.2550181866
 10
334.6625947277
 20
-315.7961474671
 10
333.8385842217
 20
-313.3024871848
 10
333.2874305412
 20
-310.7838786777
 10
333.0113088378
 20
-308.2502617428
 10
333.0113088378
 20
-305.7116354088
 10
333.2874305412
 20
-303.1780184739
 10
333.8385842217
 20
-300.6594099668
 10
334.6625947277
 20
-298.1657496845
 10
335.756210066
 20
-295.706878965
 10
337.1151142366
 20
-293.2925018475
 10
338.7339442655
 20
-290.9321467757
 10
340.6063113702
 20
-288.6351289926
 10
342.7248261731
 20
-286.4105137779
 10
345.0811278641
 20
-284.2670806717
 10
347.6659171971
 20
-282.2132888251
 10
350.4689931892
 20
-280.2572436162
 10
353.4792933803
 20
-278.406664662
  0
LWPOLYLINE
  5
E7
330
1F
100
AcDbEntity
  8
0
  6
Continuous
 62
     7
370
    25
100
AcDbPolyline
 90
       95
 70
   128
 43
0.0
 10
359.3482796642
 20
-281.7947583261
 10
356.5316457277
 20
-283.5332541267
 10
353.9224469824
 20
-285.3764730227
 10
351.5323367431
 20
-287.3161827512
 10
349.3719898224
 20
-289.3437200975
 10
347.4510548542
 20
-291.4500295877
 10
345.7781112001
 20
-293.6257039323
 10
344.3606306328
 20
-295.8610260415
 10
343.2049439646
 20
-298.1460124241
 10
342.3162127726
 20
-300.4704577763
 10
341.6984063461
 20
-302.8239805609
 10
341.3542839586
 20
-305.1960693737
 10
341.2853825442
 20
-307.5761298904
 10
341.4920098333
 20
-309.9535321828
 10
341.9732429784
 20
-312.3176581952
 10
342.7269326753
 20
-314.6579491669
 10
343.7497127629
 20
-316.9639527904
 10
345.0370152571
 20
-319.2253698937
 10
346.5830907523
 20
-321.4321004389
 10
348.3810341003
 20
-323.5742886319
 10
350.4228152494
 20
-325.6423669401
 10
352.6993151095
 20
-327.6270988237
 10
355.2003662795
 20
-329.5196199884
 10
357.9147984577
 20
-331.3114779753
 10
360.8304883312
 20
-332.9946699115
 10
363.9344137211
 20
-334.5616782533
 10
367.2127117432
 20
-336.005504361
 10
370.6507407227
 20
-337.3196997568
 10
374.2331455876
 20
-338.498394925
 10
377.943926448
 20
-339.5363255268
 10
381.7665100559
 20
-340.4288559121
 10
385.6838238249
 20
-341.1719998238
 10
389.6783720809
 20
-341.7624382005
 10
393.7323142015
 20
-342.1975340013
 10
397.8275442972
 20
-342.4753439825
 10
401.9457720762
 20
-342.5946273775
 10
406.0686045336
 20
-342.5548514377
 10
410.1776280988
 20
-342.3561938119
 10
414.254490875
 20
-341.9995417534
 10
418.2809846034
 20
-341.486488157
 10
422.2391259856
 20
-340.8193244444
 10
426.1112370013
 20
-340.0010303307
 10
429.8800238628
 20
-339.0352605163
 10
433.528654253
 20
-337.9263283633
 10
437.0408325028
 20
-336.6791866322
 10
440.4008723718
 20
-335.2994053605
 10
443.593767106
 20
-333.7931469865
 10
446.6052564626
 20
-332.1671388255
 10
449.421890399
 20
-330.4286430249
 10
452.0310891443
 20
-328.5854241288
 10
454.4211993836
 20
-326.6457144004
 10
456.5815463043
 20
-324.6181770541
 10
458.5024812726
 20
-322.5118675639
 10
460.1754249266
 20
-320.3361932193
 10
461.5929054939
 20
-318.1008711101
 10
462.7485921621
 20
-315.8158847275
 10
463.6373233541
 20
-313.4914393752
 10
464.2551297806
 20
-311.1379165907
 10
464.5992521681
 20
-308.7658277779
 10
464.6681535825
 20
-306.3857672612
 10
464.4615262934
 20
-304.0083649688
 10
463.9802931484
 20
-301.6442389564
 10
463.2266034515
 20
-299.3039479847
 10
462.2038233639
 20
-296.9979443612
 10
460.9165208697
 20
-294.7365272579
 10
459.3704453744
 20
-292.5297967127
 10
457.5725020265
 20
-290.3876085197
 10
455.5307208773
 20
-288.3195302115
 10
453.2542210173
 20
-286.3347983278
 10
450.7531698473
 20
-284.4422771631
 10
448.038737669
 20
-282.6504191763
 10
445.1230477955
 20
-280.9672272401
 10
442.0191224056
 20
-279.4002188983
 10
438.7408243835
 20
-277.9563927906
 10
435.302795404
 20
-276.6421973948
 10
431.7203905392
 20
-275.4635022266
 10
428.0096096787
 20
-274.4255716248
 10
424.1870260708
 20
-273.5330412394
 10
420.2697123018
 20
-272.7898973278
 10
416.2751640458
 20
-272.1994589511
 10
412.2212219252
 20
-271.7643631503
 10
408.1259918295
 20
-271.486553169
 10
404.0077640505
 20
-271.367269774
 10
399.8849315931
 20
-271.4070457139
 10
395.7759080279
 20
-271.6057033397
 10
391.6990452517
 20
-271.9623553981
 10
387.6725515233
 20
-272.4754089946
 10
383.7144101411
 20
-273.1425727072
 10
379.8422991254
 20
-273.9608668208
 10
376.073512264
 20
-274.9266366353
 10
372.4248818738
 20
-276.0355687882
 10
368.9127036239
 20
-277.2827105194
 10
365.552663755
 20
-278.662491791
 10
362.3597690207
 20
-280.1687501651
 10
359.3482796642
 20
-281.7947583261
  0
LWPOLYLINE
  5
E8
330
1F
100
AcDbEntity
  8
0
  6
Continuous
 62
     1
370
    25
100
AcDbPolyline
 90
       14
 70
   128
 43
0.0
 10
452.4742427464
 20
-176.3390631763
 10
455.5822148972
 20
-178.0204693344
 10
458.6779213017
 20
-179.4696638026
 10
461.7491446212
 20
-180.6809272724
 10
464.7837641403
 20
-181.6494794403
 10
467.7698036021
 20
-182.3714978733
 10
470.6954784731
 20
-182.8441330945
 10
473.5492424512
 20
-183.0655198286
 10
476.3198330337
 20
-183.0347843634
 10
478.9963159654
 20
-182.7520479977
 10
481.5681283908
 20
-182.2184265628
 10
484.0251205414
 20
-181.4360260186
 10
486.3575957915
 20
-180.4079341426
 10
487.4713983887
 20
-179.8046267109
  0
LWPOLYLINE
  5
E9
330
1F
100
AcDbEntity
  8
0
  6
Continuous
 62
     1
370
    25
100
AcDbPolyline
 90
       39
 70
   128
 43
0.0
 10
417.4770871042
 20
-58.5577859776
 10
416.3921365659
 20
-59.2242043447
 10
414.3357830192
 20
-60.7305530385
 10
412.4299445492
 20
-62.4675797574
 10
410.6821426297
 20
-64.4284292505
 10
409.0992750364
 20
-66.6053629405
 10
407.6875886244
 20
-68.9897894649
 10
406.4526546753
 20
-71.5722985814
 10
405.3993469089
 20
-74.3426983065
 10
404.53182225
 20
-77.2900551379
 10
403.853504422
 20
-80.402737205
 10
403.3670704354
 20
-83.6684601735
 10
403.074440023
 20
-87.0743357269
 10
402.9767680634
 20
-90.6069224305
 10
403.074440023
 20
-94.2522787783
 10
403.3670704354
 20
-97.9960182142
 10
403.853504422
 20
-101.8233659091
 10
404.53182225
 20
-105.7192170702
 10
405.3993469089
 20
-109.6681965527
 10
406.4526546753
 20
-113.6547195388
 10
407.6875886244
 20
-117.6630530435
 10
409.0992750364
 20
-121.6773780057
 10
410.6821426297
 20
-125.6818517188
 10
412.4299445492
 20
-129.6606703544
 10
414.3357830192
 20
-133.5981313332
 10
416.3921365659
 20
-137.4786952955
 10
418.5908897014
 20
-141.2870474283
 10
420.9233649515
 20
-145.0081579055
 10
423.380357102
 20
-148.6273412041
 10
425.9521695274
 20
-152.130314061
 10
428.6286524591
 20
-155.5032518429
 10
431.3992430416
 20
-158.7328431051
 10
434.2530070197
 20
-161.8063421264
 10
437.1786818907
 20
-164.7116192104
 10
440.1647213526
 20
-167.4372085556
 10
443.1993408716
 20
-169.9723535062
 10
446.2705641911
 20
-172.3070490032
 10
449.3662705957
 20
-174.4320810702
 10
452.4742427464
 20
-176.3390631763
  0
LWPOLYLINE
  5
EA
330
1F
100
AcDbEntity
  8
0
  6
Continuous
 62
     1
370
    25
100
AcDbPolyline
 90
       14
 70
   128
 43
0.0
 10
452.4742427464
 20
-176.3390631763
 10
455.4845429375
 20
-178.1896421305
 10
458.2876189297
 20
-180.1456873394
 10
460.8724082626
 20
-182.199479186
 10
463.2287099536
 20
-184.3429122922
 10
465.3472247566
 20
-186.5675275068
 10
467.2195918612
 20
-188.86454529
 10
468.8384218902
 20
-191.2249003618
 10
470.1973260608
 20
-193.6392774792
 10
471.2909413991
 20
-196.0981481988
 10
472.114951905
 20
-198.5918084811
 10
472.6661055856
 20
-201.1104169882
 10
472.942227289
 20
-203.6440339231
 10
472.9767680634
 20
-204.9133470901
  0
LWPOLYLINE
  5
EB
330
1F
100
AcDbEntity
  8
0
  6
Continuous
 62
     1
370
    25
100
AcDbPolyline
 90
       39
 70
   128
 43
0.0
 10
332.9767680634
 20
-204.9133470901
 10
333.0113088378
 20
-203.6440339231
 10
333.2874305412
 20
-201.1104169882
 10
333.8385842217
 20
-198.5918084811
 10
334.6625947277
 20
-196.0981481988
 10
335.756210066
 20
-193.6392774792
 10
337.1151142366
 20
-191.2249003618
 10
338.7339442655
 20
-188.86454529
 10
340.6063113702
 20
-186.5675275068
 10
342.7248261731
 20
-184.3429122922
 10
345.0811278641
 20
-182.199479186
 10
347.6659171971
 20
-180.1456873394
 10
350.4689931892
 20
-178.1896421305
 10
353.4792933803
 20
-176.3390631763
 10
356.6849374907
 20
-174.6012538663
 10
360.0732743077
 20
-172.98307254
 10
363.6309316137
 20
-171.4909054197
 10
367.3438689608
 20
-170.1306414075
 10
371.1974330816
 20
-168.9076488439
 10
375.1764157189
 20
-167.8267543219
 10
379.2651136462
 20
-166.8922236382
 10
383.4473906406
 20
-166.1077449586
 10
387.7067411656
 20
-165.4764142621
 10
392.0263555106
 20
-165.0007231224
 10
396.3891861311
 20
-164.6825488751
 10
400.7780149279
 20
-164.5231472087
 10
405.1755211988
 20
-164.5231472087
 10
409.5643499957
 20
-164.6825488751
 10
413.9271806162
 20
-165.0007231224
 10
418.2467949611
 20
-165.4764142621
 10
422.5061454861
 20
-166.1077449586
 10
426.6884224805
 20
-166.8922236382
 10
430.7771204078
 20
-167.8267543219
 10
434.7561030451
 20
-168.9076488439
 10
438.6096671659
 20
-170.1306414075
 10
442.322604513
 20
-171.4909054197
 10
445.8802618191
 20
-172.98307254
 10
449.268598636
 20
-174.6012538663
 10
452.4742427464
 20
-176.3390631763
  0
ENDSEC
  0
SECTION
  2
OBJECTS
  0
DICTIONARY
  5
C
330
0
100
AcDbDictionary
281
     1
  3
ACAD_GROUP
350
D
  3
ACAD_LAYOUT
350
1A
  3
ACAD_MLINESTYLE
350
17
  3
ACAD_PLOTSETTINGS
350
19
  3
ACAD_PLOTSTYLENAME
350
E
  3
ACAD_SCALELIST
350
47
  3
DWGPROPS
350
EC
  0
DICTIONARY
  5
D
102
{ACAD_REACTORS
330
C
102
}
330
C
100
AcDbDictionary
281
     1
  0
DICTIONARY
  5
1A
102
{ACAD_REACTORS
330
C
102
}
330
C
100
AcDbDictionary
281
     1
  3
Layout1
350
1E
  3
Layout2
350
26
  3
Model
350
22
  0
DICTIONARY
  5
17
102
{ACAD_REACTORS
330
C
102
}
330
C
100
AcDbDictionary
281
     1
  3
Standard
350
18
  0
DICTIONARY
  5
19
102
{ACAD_REACTORS
330
C
102
}
330
C
100
AcDbDictionary
281
     1
  0
ACDBDICTIONARYWDFLT
  5
E
102
{ACAD_REACTORS
330
C
102
}
330
C
100
AcDbDictionary
281
     1
  3
Normal
350
F
100
AcDbDictionaryWithDefault
340
F
  0
DICTIONARY
  5
47
102
{ACAD_REACTORS
330
C
102
}
330
C
100
AcDbDictionary
281
     1
  3
A0
350
48
  3
A1
350
49
  3
A2
350
4A
  3
A3
350
4B
  3
A4
350
4C
  3
A5
350
4D
  3
A6
350
4E
  3
A7
350
4F
  3
A8
350
50
  3
A9
350
51
  3
B0
350
52
  3
B1
350
53
  3
B2
350
54
  3
B3
350
55
  3
B4
350
56
  3
B5
350
57
  3
B6
350
58
  3
B7
350
59
  3
B8
350
5A
  3
B9
350
5B
  3
C0
350
5C
  3
C1
350
5D
  3
C2
350
5E
  3
C3
350
5F
  3
C4
350
60
  3
C5
350
61
  3
C6
350
62
  3
C7
350
63
  3
C8
350
64
  3
C9
350
65
  3
D0
350
66
  3
D1
350
67
  3
D2
350
68
  0
XRECORD
  5
EC
102
{ACAD_REACTORS
330
C
102
}
330
C
100
AcDbXrecord
280
     1
  1
DWGPROPS COOKIE
  2

  3

  4

  6

  7

  8
b.kav
  9

300
=
301
=
302
=
303
=
304
=
305
=
306
=
307
=
308
=
309
=
 40
0.0
 41
2459935.574853831
 42
2459935.574854016
  1

 90
        0
  0
LAYOUT
  5
1E
102
{ACAD_REACTORS
330
1A
102
}
330
1A
100
AcDbPlotSettings
  1

  2
none_device
  4

  6

 40
0.0
 41
0.0
 42
0.0
 43
0.0
 44
0.0
 45
0.0
 46
0.0
 47
0.0
 48
0.0
 49
0.0
140
0.0
141
0.0
142
1.0
143
1.0
 70
   688
 72
     1
 73
     0
 74
     5
  7

 75
    16
147
1.0
148
0.0
149
0.0
100
AcDbLayout
  1
Layout1
 70
     1
 71
     1
 10
0.0
 20
0.0
 11
420.0
 21
297.0
 12
0.0
 22
0.0
 32
0.0
 14
1.0000000000E+20
 24
1.0000000000E+20
 34
1.0000000000E+20
 15
-1.0000000000E+20
 25
-1.0000000000E+20
 35
-1.0000000000E+20
146
0.0
 13
0.0
 23
0.0
 33
0.0
 16
1.0
 26
0.0
 36
0.0
 17
0.0
 27
1.0
 37
0.0
 76
     0
330
1B
  0
LAYOUT
  5
26
102
{ACAD_REACTORS
330
1A
102
}
330
1A
100
AcDbPlotSettings
  1

  2
none_device
  4

  6

 40
0.0
 41
0.0
 42
0.0
 43
0.0
 44
0.0
 45
0.0
 46
0.0
 47
0.0
 48
0.0
 49
0.0
140
0.0
141
0.0
142
1.0
143
1.0
 70
   688
 72
     1
 73
     0
 74
     5
  7

 75
    16
147
1.0
148
0.0
149
0.0
100
AcDbLayout
  1
Layout2
 70
     1
 71
     2
 10
0.0
 20
0.0
 11
0.0
 21
0.0
 12
0.0
 22
0.0
 32
0.0
 14
0.0
 24
0.0
 34
0.0
 15
0.0
 25
0.0
 35
0.0
146
0.0
 13
0.0
 23
0.0
 33
0.0
 16
1.0
 26
0.0
 36
0.0
 17
0.0
 27
1.0
 37
0.0
 76
     0
330
23
  0
LAYOUT
  5
22
102
{ACAD_REACTORS
330
1A
102
}
330
1A
100
AcDbPlotSettings
  1

  2
none_device
  4
Letter_(8.50_x_11.00_Inches)
  6

 40
6.35
 41
6.35
 42
6.35000508
 43
6.35000508
 44
215.9
 45
279.4
 46
0.0
 47
0.0
 48
0.0
 49
0.0
140
0.0
141
0.0
142
1.0
143
1.0
 70
  1712
 72
     1
 73
     0
 74
     0
  7

 75
     0
147
1.0
148
0.0
149
0.0
100
AcDbLayout
  1
Model
 70
     1
 71
     0
 10
0.0
 20
0.0
 11
279.4
 21
215.9
 12
0.0
 22
0.0
 32
0.0
 14
0.0
 24
0.0
 34
0.0
 15
279.4
 25
215.9
 35
0.0
146
0.0
 13
0.0
 23
0.0
 33
0.0
 16
1.0
 26
0.0
 36
0.0
 17
0.0
 27
1.0
 37
0.0
 76
     0
330
1F
331
29
  0
MLINESTYLE
  5
18
102
{ACAD_REACTORS
330
17
102
}
330
17
100
AcDbMlineStyle
  2
Standard
 70
     0
  3

 62
   256
 51
90.0
 52
90.0
 71
     2
 49
0.5
 62
   256
  6
BYLAYER
 49
-0.5
 62
   256
  6
BYLAYER
  0
ACDBPLACEHOLDER
  5
F
102
{ACAD_REACTORS
330
E
102
}
330
E
  0
SCALE
  5
48
102
{ACAD_REACTORS
330
47
102
}
330
47
100
AcDbScale
 70
     0
300
1:1
140
1.0
141
1.0
290
     1
  0
SCALE
  5
49
102
{ACAD_REACTORS
330
47
102
}
330
47
100
AcDbScale
 70
     0
300
1:2
140
1.0
141
2.0
290
     0
  0
SCALE
  5
4A
102
{ACAD_REACTORS
330
47
102
}
330
47
100
AcDbScale
 70
     0
300
1:4
140
1.0
141
4.0
290
     0
  0
SCALE
  5
4B
102
{ACAD_REACTORS
330
47
102
}
330
47
100
AcDbScale
 70
     0
300
1:5
140
1.0
141
5.0
290
     0
  0
SCALE
  5
4C
102
{ACAD_REACTORS
330
47
102
}
330
47
100
AcDbScale
 70
     0
300
1:8
140
1.0
141
8.0
290
     0
  0
SCALE
  5
4D
102
{ACAD_REACTORS
330
47
102
}
330
47
100
AcDbScale
 70
     0
300
1:10
140
1.0
141
10.0
290
     0
  0
SCALE
  5
4E
102
{ACAD_REACTORS
330
47
102
}
330
47
100
AcDbScale
 70
     0
300
1:16
140
1.0
141
16.0
290
     0
  0
SCALE
  5
4F
102
{ACAD_REACTORS
330
47
102
}
330
47
100
AcDbScale
 70
     0
300
1:20
140
1.0
141
20.0
290
     0
  0
SCALE
  5
50
102
{ACAD_REACTORS
330
47
102
}
330
47
100
AcDbScale
 70
     0
300
1:30
140
1.0
141
30.0
290
     0
  0
SCALE
  5
51
102
{ACAD_REACTORS
330
47
102
}
330
47
100
AcDbScale
 70
     0
300
1:40
140
1.0
141
40.0
290
     0
  0
SCALE
  5
52
102
{ACAD_REACTORS
330
47
102
}
330
47
100
AcDbScale
 70
     0
300
1:50
140
1.0
141
50.0
290
     0
  0
SCALE
  5
53
102
{ACAD_REACTORS
330
47
102
}
330
47
100
AcDbScale
 70
     0
300
1:100
140
1.0
141
100.0
290
     0
  0
SCALE
  5
54
102
{ACAD_REACTORS
330
47
102
}
330
47
100
AcDbScale
 70
     0
300
2:1
140
2.0
141
1.0
290
     0
  0
SCALE
  5
55
102
{ACAD_REACTORS
330
47
102
}
330
47
100
AcDbScale
 70
     0
300
4:1
140
4.0
141
1.0
290
     0
  0
SCALE
  5
56
102
{ACAD_REACTORS
330
47
102
}
330
47
100
AcDbScale
 70
     0
300
8:1
140
8.0
141
1.0
290
     0
  0
SCALE
  5
57
102
{ACAD_REACTORS
330
47
102
}
330
47
100
AcDbScale
 70
     0
300
10:1
140
10.0
141
1.0
290
     0
  0
SCALE
  5
58
102
{ACAD_REACTORS
330
47
102
}
330
47
100
AcDbScale
 70
     0
300
100:1
140
100.0
141
1.0
290
     0
  0
SCALE
  5
59
102
{ACAD_REACTORS
330
47
102
}
330
47
100
AcDbScale
 70
     0
300
1/128" = 1'-0"
140
0.0078125
141
12.0
290
     0
  0
SCALE
  5
5A
102
{ACAD_REACTORS
330
47
102
}
330
47
100
AcDbScale
 70
     0
300
1/64" = 1'-0"
140
0.015625
141
12.0
290
     0
  0
SCALE
  5
5B
102
{ACAD_REACTORS
330
47
102
}
330
47
100
AcDbScale
 70
     0
300
1/32" = 1'-0"
140
0.03125
141
12.0
290
     0
  0
SCALE
  5
5C
102
{ACAD_REACTORS
330
47
102
}
330
47
100
AcDbScale
 70
     0
300
1/16" = 1'-0"
140
0.0625
141
12.0
290
     0
  0
SCALE
  5
5D
102
{ACAD_REACTORS
330
47
102
}
330
47
100
AcDbScale
 70
     0
300
3/32" = 1'-0"
140
0.09375
141
12.0
290
     0
  0
SCALE
  5
5E
102
{ACAD_REACTORS
330
47
102
}
330
47
100
AcDbScale
 70
     0
300
1/8" = 1'-0"
140
0.125
141
12.0
290
     0
  0
SCALE
  5
5F
102
{ACAD_REACTORS
330
47
102
}
330
47
100
AcDbScale
 70
     0
300
3/16" = 1'-0"
140
0.1875
141
12.0
290
     0
  0
SCALE
  5
60
102
{ACAD_REACTORS
330
47
102
}
330
47
100
AcDbScale
 70
     0
300
1/4" = 1'-0"
140
0.25
141
12.0
290
     0
  0
SCALE
  5
61
102
{ACAD_REACTORS
330
47
102
}
330
47
100
AcDbScale
 70
     0
300
3/8" = 1'-0"
140
0.375
141
12.0
290
     0
  0
SCALE
  5
62
102
{ACAD_REACTORS
330
47
102
}
330
47
100
AcDbScale
 70
     0
300
1/2" = 1'-0"
140
0.5
141
12.0
290
     0
  0
SCALE
  5
63
102
{ACAD_REACTORS
330
47
102
}
330
47
100
AcDbScale
 70
     0
300
3/4" = 1'-0"
140
0.75
141
12.0
290
     0
  0
SCALE
  5
64
102
{ACAD_REACTORS
330
47
102
}
330
47
100
AcDbScale
 70
     0
300
1" = 1'-0"
140
1.0
141
12.0
290
     0
  0
SCALE
  5
65
102
{ACAD_REACTORS
330
47
102
}
330
47
100
AcDbScale
 70
     0
300
1-1/2" = 1'-0"
140
1.5
141
12.0
290
     0
  0
SCALE
  5
66
102
{ACAD_REACTORS
330
47
102
}
330
47
100
AcDbScale
 70
     0
300
3" = 1'-0"
140
3.0
141
12.0
290
     0
  0
SCALE
  5
67
102
{ACAD_REACTORS
330
47
102
}
330
47
100
AcDbScale
 70
     0
300
6" = 1'-0"
140
6.0
141
12.0
290
     0
  0
SCALE
  5
68
102
{ACAD_REACTORS
330
47
102
}
330
47
100
AcDbScale
 70
     0
300
1'-0" = 1'-0"
140
12.0
141
12.0
290
     0
  0
ENDSEC
  0
EOF
